ISO-10303-21;
HEADER;
FILE_DESCRIPTION (( 'STEP AP203' ),
    '1' );
FILE_NAME ('BK7-BPBSC-25.4-450-650.STEP',
    '2021-01-05T02:11:12',
    ( '' ),
    ( '' ),
    'SwSTEP 2.0',
    'SolidWorks 2020',
    '' );
FILE_SCHEMA (( 'CONFIG_CONTROL_DESIGN' ));
ENDSEC;

DATA;
#1 = AXIS2_PLACEMENT_3D ( 'NONE', #190, #50, #261 ) ;
#2 = CARTESIAN_POINT ( 'NONE',  ( -12.70000000000000284, 12.70000000000000284, 12.69999999999999929 ) ) ;
#3 = DIRECTION ( 'NONE',  ( -0.000000000000000000, 0.000000000000000000, 1.000000000000000000 ) ) ;
#4 = ORIENTED_EDGE ( 'NONE', *, *, #101, .F. ) ;
#5 = EDGE_CURVE ( 'NONE', #232, #160, #283, .T. ) ;
#6 = LINE ( 'NONE', #231, #215 ) ;
#7 = AXIS2_PLACEMENT_3D ( 'NONE', #268, #145, #221 ) ;
#8 = CARTESIAN_POINT ( 'NONE',  ( 12.69999999999999574, 12.69999999999999574, 12.69999999999999929 ) ) ;
#9 = FACE_OUTER_BOUND ( 'NONE', #220, .T. ) ;
#10 = APPROVAL ( #315, 'UNSPECIFIED' ) ;
#11 = SECURITY_CLASSIFICATION_LEVEL ( 'unclassified' ) ;
#12 = ORIENTED_EDGE ( 'NONE', *, *, #303, .T. ) ;
#13 = DIRECTION ( 'NONE',  ( 0.000000000000000000, 1.000000000000000000, 0.000000000000000000 ) ) ;
#14 = CALENDAR_DATE ( 2021, 5, 1 ) ;
#15 = APPROVAL_ROLE ( '' ) ;
#16 = CC_DESIGN_APPROVAL ( #298, ( #172 ) ) ;
#17 = PLANE ( 'NONE',  #103 ) ;
#18 = DIRECTION ( 'NONE',  ( 1.000000000000000000, -2.220446049250312588E-16, 0.000000000000000000 ) ) ;
#19 = LINE ( 'NONE', #46, #249 ) ;
#20 = PERSON_AND_ORGANIZATION_ROLE ( 'classification_officer' ) ;
#21 = ORIENTED_EDGE ( 'NONE', *, *, #250, .F. ) ;
#22 = CC_DESIGN_PERSON_AND_ORGANIZATION_ASSIGNMENT ( #142, #20, ( #282 ) ) ;
#23 = LINE ( 'NONE', #88, #39 ) ;
#24 = DATE_TIME_ROLE ( 'creation_date' ) ;
#25 = LOCAL_TIME ( 10, 11, 12.00000000000000000, #306 ) ;
#26 = UNCERTAINTY_MEASURE_WITH_UNIT (LENGTH_MEASURE( 1.000000000000000082E-05 ), #253, 'distance_accuracy_value', 'NONE');
#27 = CC_DESIGN_PERSON_AND_ORGANIZATION_ASSIGNMENT ( #70, #216, ( #153 ) ) ;
#28 = CC_DESIGN_APPROVAL ( #10, ( #282 ) ) ;
#29 = EDGE_CURVE ( 'NONE', #135, #256, #165, .T. ) ;
#30 = CARTESIAN_POINT ( 'NONE',  ( -12.69999999999999574, -12.69999999999999396, -12.69999999999999929 ) ) ;
#31 = VECTOR ( 'NONE', #42, 1000.000000000000000 ) ;
#32 = ORIENTED_EDGE ( 'NONE', *, *, #270, .F. ) ;
#33 = LINE ( 'NONE', #8, #321 ) ;
#34 = ORIENTED_EDGE ( 'NONE', *, *, #124, .F. ) ;
#35 = CARTESIAN_POINT ( 'NONE',  ( -12.69999999999999751, -12.69999999999999929, -12.69999999999999929 ) ) ;
#36 = CALENDAR_DATE ( 2021, 5, 1 ) ;
#37 = PLANE ( 'NONE',  #127 ) ;
#38 = APPROVAL ( #49, 'UNSPECIFIED' ) ;
#39 = VECTOR ( 'NONE', #117, 999.9999999999998863 ) ;
#40 = ORIENTED_EDGE ( 'NONE', *, *, #116, .F. ) ;
#41 = CARTESIAN_POINT ( 'NONE',  ( -12.69999999999999751, -12.69999999999999929, 12.69999999999999929 ) ) ;
#42 = DIRECTION ( 'NONE',  ( -2.220446049250312588E-16, 1.000000000000000000, 0.000000000000000000 ) ) ;
#43 = DIRECTION ( 'NONE',  ( 1.000000000000000000, 0.000000000000000000, 0.000000000000000000 ) ) ;
#44 = VERTEX_POINT ( 'NONE', #118 ) ;
#45 = LOCAL_TIME ( 10, 11, 12.00000000000000000, #68 ) ;
#46 = CARTESIAN_POINT ( 'NONE',  ( 12.69999999999999929, 12.69999999999999929, -12.69999999999999929 ) ) ;
#47 = ORIENTED_EDGE ( 'NONE', *, *, #101, .T. ) ;
#48 = ADVANCED_FACE ( 'NONE', ( #262 ), #92, .F. ) ;
#49 = APPROVAL_STATUS ( 'not_yet_approved' ) ;
#50 = DIRECTION ( 'NONE',  ( 2.220446049250312588E-16, -1.000000000000000000, 0.000000000000000000 ) ) ;
#51 = AXIS2_PLACEMENT_3D ( 'NONE', #179, #105, #61 ) ;
#52 = DESIGN_CONTEXT ( 'detailed design', #297, 'design' ) ;
#53 = VECTOR ( 'NONE', #168, 1000.000000000000114 ) ;
#54 = FACE_OUTER_BOUND ( 'NONE', #241, .T. ) ;
#55 = EDGE_CURVE ( 'NONE', #135, #245, #235, .T. ) ;
#56 = LINE ( 'NONE', #255, #74 ) ;
#57 = CC_DESIGN_SECURITY_CLASSIFICATION ( #282, ( #172 ) ) ;
#58 = ORIENTED_EDGE ( 'NONE', *, *, #152, .T. ) ;
#59 = FACE_OUTER_BOUND ( 'NONE', #206, .T. ) ;
#60 = ORIENTED_EDGE ( 'NONE', *, *, #284, .T. ) ;
#61 = DIRECTION ( 'NONE',  ( 0.7071067811865475727, 0.7071067811865475727, 0.000000000000000000 ) ) ;
#62 = ORIENTED_EDGE ( 'NONE', *, *, #303, .F. ) ;
#63 = VECTOR ( 'NONE', #163, 1000.000000000000000 ) ;
#64 = VECTOR ( 'NONE', #65, 1000.000000000000000 ) ;
#65 = DIRECTION ( 'NONE',  ( -0.000000000000000000, -0.000000000000000000, -1.000000000000000000 ) ) ;
#66 = ORIENTED_EDGE ( 'NONE', *, *, #242, .F. ) ;
#67 = CARTESIAN_POINT ( 'NONE',  ( -12.69999999999999574, -12.69999999999999396, -12.69999999999999929 ) ) ;
#68 = COORDINATED_UNIVERSAL_TIME_OFFSET ( 8, 0, .AHEAD. ) ;
#69 = ORIENTED_EDGE ( 'NONE', *, *, #229, .F. ) ;
#70 = PERSON_AND_ORGANIZATION ( #85, #182 ) ;
#71 = DIRECTION ( 'NONE',  ( -2.220446049250312588E-16, 1.000000000000000000, 0.000000000000000000 ) ) ;
#72 = ADVANCED_FACE ( 'NONE', ( #99 ), #198, .F. ) ;
#73 = DIRECTION ( 'NONE',  ( 0.000000000000000000, 0.000000000000000000, 1.000000000000000000 ) ) ;
#74 = VECTOR ( 'NONE', #276, 1000.000000000000000 ) ;
#75 = LINE ( 'NONE', #217, #224 ) ;
#76 = CALENDAR_DATE ( 2021, 5, 1 ) ;
#77 = CC_DESIGN_PERSON_AND_ORGANIZATION_ASSIGNMENT ( #313, #94, ( #172 ) ) ;
#78 = CLOSED_SHELL ( 'NONE', ( #201, #48, #138, #102, #72 ) ) ;
#79 = CC_DESIGN_PERSON_AND_ORGANIZATION_ASSIGNMENT ( #192, #286, ( #172 ) ) ;
#80 = APPROVAL_PERSON_ORGANIZATION ( #234, #10, #213 ) ;
#81 = EDGE_CURVE ( 'NONE', #171, #245, #23, .T. ) ;
#82 = CARTESIAN_POINT ( 'NONE',  ( 0.000000000000000000, 0.000000000000000000, 12.69999999999999929 ) ) ;
#83 = CARTESIAN_POINT ( 'NONE',  ( 12.69999999999999574, 12.69999999999999574, 12.69999999999999929 ) ) ;
#84 = ORIENTED_EDGE ( 'NONE', *, *, #229, .T. ) ;
#85 = PERSON ( 'UNSPECIFIED', 'UNSPECIFIED', 'UNSPECIFIED', ('UNSPECIFIED'), ('UNSPECIFIED'), ('UNSPECIFIED') ) ;
#86 = LINE ( 'NONE', #159, #134 ) ;
#87 = APPROVAL_DATE_TIME ( #91, #10 ) ;
#88 = CARTESIAN_POINT ( 'NONE',  ( 12.69999999999999574, 12.69999999999999574, -12.69999999999999929 ) ) ;
#89 = VECTOR ( 'NONE', #263, 1000.000000000000000 ) ;
#90 = CARTESIAN_POINT ( 'NONE',  ( -12.69999999999999751, -12.69999999999999929, 12.69999999999999929 ) ) ;
#91 = DATE_AND_TIME ( #36, #45 ) ;
#92 = PLANE ( 'NONE',  #123 ) ;
#93 = PRODUCT_DEFINITION_SHAPE ( 'NONE', 'NONE',  #153 ) ;
#94 = PERSON_AND_ORGANIZATION_ROLE ( 'creator' ) ;
#95 = CARTESIAN_POINT ( 'NONE',  ( 0.000000000000000000, 0.000000000000000000, -12.69999999999999929 ) ) ;
#96 = EDGE_LOOP ( 'NONE', ( #287, #21, #185, #84 ) ) ;
#97 = PERSON_AND_ORGANIZATION ( #85, #182 ) ;
#98 = CARTESIAN_POINT ( 'NONE',  ( -12.70000000000000284, 12.70000000000000284, -12.69999999999999929 ) ) ;
#99 = FACE_OUTER_BOUND ( 'NONE', #228, .T. ) ;
#100 = LOCAL_TIME ( 10, 11, 12.00000000000000000, #292 ) ;
#101 = EDGE_CURVE ( 'NONE', #194, #130, #19, .T. ) ;
#102 = ADVANCED_FACE ( 'NONE', ( #314 ), #146, .T. ) ;
#103 = AXIS2_PLACEMENT_3D ( 'NONE', #208, #183, #104 ) ;
#104 = DIRECTION ( 'NONE',  ( 0.000000000000000000, 0.000000000000000000, 1.000000000000000000 ) ) ;
#105 = DIRECTION ( 'NONE',  ( -0.7071067811865475727, 0.7071067811865475727, 0.000000000000000000 ) ) ;
#106 = ORIENTED_EDGE ( 'NONE', *, *, #55, .T. ) ;
#107 = ORIENTED_EDGE ( 'NONE', *, *, #209, .F. ) ;
#108 = EDGE_CURVE ( 'NONE', #211, #171, #75, .T. ) ;
#109 = DIRECTION ( 'NONE',  ( 1.000000000000000000, -2.220446049250312588E-16, 0.000000000000000000 ) ) ;
#110 = ORIENTED_EDGE ( 'NONE', *, *, #29, .F. ) ;
#111 = CARTESIAN_POINT ( 'NONE',  ( -12.69999999999999751, -12.69999999999999929, 12.69999999999999929 ) ) ;
#112 = ORIENTED_EDGE ( 'NONE', *, *, #250, .T. ) ;
#113 = DIRECTION ( 'NONE',  ( 0.000000000000000000, -0.000000000000000000, 1.000000000000000000 ) ) ;
#114 = SHAPE_DEFINITION_REPRESENTATION ( #93, #290 ) ;
#115 = ORIENTED_EDGE ( 'NONE', *, *, #126, .F. ) ;
#116 = EDGE_CURVE ( 'NONE', #211, #135, #169, .T. ) ;
#117 = DIRECTION ( 'NONE',  ( -0.7071067811865475727, -0.7071067811865475727, 0.000000000000000000 ) ) ;
#118 = CARTESIAN_POINT ( 'NONE',  ( -12.69999999999999751, -12.69999999999999929, -12.69999999999999929 ) ) ;
#119 = CARTESIAN_POINT ( 'NONE',  ( 12.69999999999999929, 12.69999999999999929, 12.69999999999999929 ) ) ;
#120 = PERSON_AND_ORGANIZATION ( #85, #182 ) ;
#121 = CARTESIAN_POINT ( 'NONE',  ( 12.69999999999999929, 12.69999999999999929, -12.69999999999999929 ) ) ;
#122 = DATE_AND_TIME ( #76, #207 ) ;
#123 = AXIS2_PLACEMENT_3D ( 'NONE', #267, #18, #73 ) ;
#124 = EDGE_CURVE ( 'NONE', #256, #129, #266, .T. ) ;
#125 =( GEOMETRIC_REPRESENTATION_CONTEXT ( 3 ) GLOBAL_UNCERTAINTY_ASSIGNED_CONTEXT ( ( #26 ) ) GLOBAL_UNIT_ASSIGNED_CONTEXT ( ( #253, #186, #317 ) ) REPRESENTATION_CONTEXT ( 'NONE', 'WORKASPACE' ) );
#126 = EDGE_CURVE ( 'NONE', #160, #184, #233, .T. ) ;
#127 = AXIS2_PLACEMENT_3D ( 'NONE', #275, #205, #133 ) ;
#128 = DIRECTION ( 'NONE',  ( -0.7071067811865474617, -0.7071067811865474617, 0.000000000000000000 ) ) ;
#129 = VERTEX_POINT ( 'NONE', #98 ) ;
#130 = VERTEX_POINT ( 'NONE', #121 ) ;
#131 = LINE ( 'NONE', #35, #259 ) ;
#132 = ADVANCED_FACE ( 'NONE', ( #196 ), #311, .F. ) ;
#133 = DIRECTION ( 'NONE',  ( 0.7071067811865474617, 0.7071067811865474617, 0.000000000000000000 ) ) ;
#134 = VECTOR ( 'NONE', #300, 1000.000000000000000 ) ;
#135 = VERTEX_POINT ( 'NONE', #239 ) ;
#136 = ORIENTED_EDGE ( 'NONE', *, *, #124, .T. ) ;
#137 = DIRECTION ( 'NONE',  ( -0.7071067811865475727, -0.7071067811865475727, 0.000000000000000000 ) ) ;
#138 = ADVANCED_FACE ( 'NONE', ( #269 ), #236, .F. ) ;
#139 = ORIENTED_EDGE ( 'NONE', *, *, #284, .F. ) ;
#140 = PERSON_AND_ORGANIZATION_ROLE ( 'design_owner' ) ;
#141 = FACE_OUTER_BOUND ( 'NONE', #143, .T. ) ;
#142 = PERSON_AND_ORGANIZATION ( #85, #182 ) ;
#143 = EDGE_LOOP ( 'NONE', ( #47, #69, #66, #58 ) ) ;
#144 = AXIS2_PLACEMENT_3D ( 'NONE', #111, #13, #113 ) ;
#145 = DIRECTION ( 'NONE',  ( 0.000000000000000000, 0.000000000000000000, 1.000000000000000000 ) ) ;
#146 = PLANE ( 'NONE',  #277 ) ;
#147 = ORIENTED_EDGE ( 'NONE', *, *, #81, .F. ) ;
#148 = DATE_AND_TIME ( #173, #155 ) ;
#149 = CARTESIAN_POINT ( 'NONE',  ( -12.70000000000000284, 12.70000000000000284, 12.69999999999999929 ) ) ;
#150 = APPROVAL_DATE_TIME ( #238, #38 ) ;
#151 = CLOSED_SHELL ( 'NONE', ( #248, #158, #181, #309, #132 ) ) ;
#152 = EDGE_CURVE ( 'NONE', #184, #194, #246, .T. ) ;
#153 = PRODUCT_DEFINITION ( 'UNKNOWN', '', #172, #52 ) ;
#154 = FACE_OUTER_BOUND ( 'NONE', #96, .T. ) ;
#155 = LOCAL_TIME ( 10, 11, 12.00000000000000000, #247 ) ;
#156 = DIRECTION ( 'NONE',  ( 1.000000000000000000, 0.000000000000000000, 0.000000000000000000 ) ) ;
#157 = ORIENTED_EDGE ( 'NONE', *, *, #116, .T. ) ;
#158 = ADVANCED_FACE ( 'NONE', ( #9 ), #164, .F. ) ;
#159 = CARTESIAN_POINT ( 'NONE',  ( 12.69999999999999929, 12.69999999999999929, 12.69999999999999929 ) ) ;
#160 = VERTEX_POINT ( 'NONE', #90 ) ;
#161 = LINE ( 'NONE', #225, #176 ) ;
#162 = ORIENTED_EDGE ( 'NONE', *, *, #177, .T. ) ;
#163 = DIRECTION ( 'NONE',  ( 0.000000000000000000, 0.000000000000000000, -1.000000000000000000 ) ) ;
#164 = PLANE ( 'NONE',  #144 ) ;
#165 = LINE ( 'NONE', #237, #31 ) ;
#166 = APPLICATION_PROTOCOL_DEFINITION ( 'international standard', 'config_control_design', 1994, #305 ) ;
#167 = LINE ( 'NONE', #67, #89 ) ;
#168 = DIRECTION ( 'NONE',  ( -0.7071067811865474617, -0.7071067811865474617, 0.000000000000000000 ) ) ;
#169 = LINE ( 'NONE', #318, #272 ) ;
#170 = PRODUCT ( 'BK7-BPBSC-25.4-450-650', 'BK7-BPBSC-25.4-450-650', '', ( #288 ) ) ;
#171 = VERTEX_POINT ( 'NONE', #285 ) ;
#172 = PRODUCT_DEFINITION_FORMATION_WITH_SPECIFIED_SOURCE ( 'ANY', '', #170, .NOT_KNOWN. ) ;
#173 = CALENDAR_DATE ( 2021, 5, 1 ) ;
#174 = ORIENTED_EDGE ( 'NONE', *, *, #55, .F. ) ;
#175 = APPLICATION_PROTOCOL_DEFINITION ( 'international standard', 'config_control_design', 1994, #297 ) ;
#176 = VECTOR ( 'NONE', #257, 1000.000000000000000 ) ;
#177 = EDGE_CURVE ( 'NONE', #245, #129, #167, .T. ) ;
#178 = VECTOR ( 'NONE', #204, 1000.000000000000000 ) ;
#179 = CARTESIAN_POINT ( 'NONE',  ( 12.69999999999999574, 12.69999999999999574, 12.69999999999999929 ) ) ;
#180 = LINE ( 'NONE', #278, #178 ) ;
#181 = ADVANCED_FACE ( 'NONE', ( #141 ), #17, .F. ) ;
#182 = ORGANIZATION ( 'UNSPECIFIED', 'UNSPECIFIED', '' ) ;
#183 = DIRECTION ( 'NONE',  ( -1.000000000000000000, 0.000000000000000000, 0.000000000000000000 ) ) ;
#184 = VERTEX_POINT ( 'NONE', #226 ) ;
#185 = ORIENTED_EDGE ( 'NONE', *, *, #5, .F. ) ;
#186 =( NAMED_UNIT ( * ) PLANE_ANGLE_UNIT ( ) SI_UNIT ( $, .RADIAN. ) );
#187 = CC_DESIGN_DATE_AND_TIME_ASSIGNMENT ( #244, #240, ( #282 ) ) ;
#188 = DIRECTION ( 'NONE',  ( 0.000000000000000000, 0.000000000000000000, 1.000000000000000000 ) ) ;
#189 = ORIENTED_EDGE ( 'NONE', *, *, #152, .F. ) ;
#190 = CARTESIAN_POINT ( 'NONE',  ( 12.69999999999999574, 12.69999999999999574, 12.69999999999999929 ) ) ;
#191 = ORIENTED_EDGE ( 'NONE', *, *, #5, .T. ) ;
#192 = PERSON_AND_ORGANIZATION ( #85, #182 ) ;
#193 = DIRECTION ( 'NONE',  ( -2.220446049250312588E-16, 1.000000000000000000, 0.000000000000000000 ) ) ;
#194 = VERTEX_POINT ( 'NONE', #251 ) ;
#195 = APPROVAL_ROLE ( '' ) ;
#196 = FACE_OUTER_BOUND ( 'NONE', #312, .T. ) ;
#197 = CC_DESIGN_DATE_AND_TIME_ASSIGNMENT ( #148, #24, ( #153 ) ) ;
#198 = PLANE ( 'NONE',  #230 ) ;
#199 = AXIS2_PLACEMENT_3D ( 'NONE', #82, #3, #156 ) ;
#200 = COORDINATED_UNIVERSAL_TIME_OFFSET ( 8, 0, .AHEAD. ) ;
#201 = ADVANCED_FACE ( 'NONE', ( #54 ), #304, .F. ) ;
#202 = APPROVAL_PERSON_ORGANIZATION ( #120, #298, #15 ) ;
#203 = VECTOR ( 'NONE', #43, 1000.000000000000000 ) ;
#204 = DIRECTION ( 'NONE',  ( -0.000000000000000000, -0.000000000000000000, -1.000000000000000000 ) ) ;
#205 = DIRECTION ( 'NONE',  ( 0.7071067811865475727, -0.7071067811865475727, 0.000000000000000000 ) ) ;
#206 = EDGE_LOOP ( 'NONE', ( #191, #301, #291 ) ) ;
#207 = LOCAL_TIME ( 10, 11, 12.00000000000000000, #200 ) ;
#208 = CARTESIAN_POINT ( 'NONE',  ( 12.69999999999999929, 12.69999999999999929, 12.69999999999999929 ) ) ;
#209 = EDGE_CURVE ( 'NONE', #130, #44, #6, .T. ) ;
#210 = EDGE_LOOP ( 'NONE', ( #32, #34, #60, #218 ) ) ;
#211 = VERTEX_POINT ( 'NONE', #83 ) ;
#212 = DIRECTION ( 'NONE',  ( -0.000000000000000000, 0.000000000000000000, 1.000000000000000000 ) ) ;
#213 = APPROVAL_ROLE ( '' ) ;
#214 = ORIENTED_EDGE ( 'NONE', *, *, #108, .F. ) ;
#215 = VECTOR ( 'NONE', #128, 1000.000000000000114 ) ;
#216 = PERSON_AND_ORGANIZATION_ROLE ( 'creator' ) ;
#217 = CARTESIAN_POINT ( 'NONE',  ( 12.69999999999999574, 12.69999999999999574, 12.69999999999999929 ) ) ;
#218 = ORIENTED_EDGE ( 'NONE', *, *, #108, .T. ) ;
#219 = CARTESIAN_POINT ( 'NONE',  ( 0.000000000000000000, 0.000000000000000000, 12.69999999999999929 ) ) ;
#220 = EDGE_LOOP ( 'NONE', ( #12, #189, #115, #112 ) ) ;
#221 = DIRECTION ( 'NONE',  ( 1.000000000000000000, 0.000000000000000000, 0.000000000000000000 ) ) ;
#222 = CARTESIAN_POINT ( 'NONE',  ( 12.69999999999999929, -12.69999999999999929, 12.69999999999999929 ) ) ;
#223 = APPROVAL_DATE_TIME ( #122, #298 ) ;
#224 = VECTOR ( 'NONE', #243, 1000.000000000000000 ) ;
#225 = CARTESIAN_POINT ( 'NONE',  ( 12.69999999999999929, 12.69999999999999929, 12.69999999999999929 ) ) ;
#226 = CARTESIAN_POINT ( 'NONE',  ( 12.69999999999999929, -12.69999999999999929, 12.69999999999999929 ) ) ;
#227 = PLANE ( 'NONE',  #199 ) ;
#228 = EDGE_LOOP ( 'NONE', ( #254, #162, #308 ) ) ;
#229 = EDGE_CURVE ( 'NONE', #232, #130, #86, .T. ) ;
#230 = AXIS2_PLACEMENT_3D ( 'NONE', #294, #260, #193 ) ;
#231 = CARTESIAN_POINT ( 'NONE',  ( 12.69999999999999929, 12.69999999999999929, -12.69999999999999929 ) ) ;
#232 = VERTEX_POINT ( 'NONE', #280 ) ;
#233 = LINE ( 'NONE', #41, #203 ) ;
#234 = PERSON_AND_ORGANIZATION ( #85, #182 ) ;
#235 = LINE ( 'NONE', #265, #63 ) ;
#236 = PLANE ( 'NONE',  #1 ) ;
#237 = CARTESIAN_POINT ( 'NONE',  ( -12.69999999999999574, -12.69999999999999396, 12.69999999999999929 ) ) ;
#238 = DATE_AND_TIME ( #271, #100 ) ;
#239 = CARTESIAN_POINT ( 'NONE',  ( -12.69999999999999574, -12.69999999999999396, 12.69999999999999929 ) ) ;
#240 = DATE_TIME_ROLE ( 'classification_date' ) ;
#241 = EDGE_LOOP ( 'NONE', ( #147, #214, #157, #106 ) ) ;
#242 = EDGE_CURVE ( 'NONE', #184, #232, #161, .T. ) ;
#243 = DIRECTION ( 'NONE',  ( 0.000000000000000000, 0.000000000000000000, -1.000000000000000000 ) ) ;
#244 = DATE_AND_TIME ( #14, #25 ) ;
#245 = VERTEX_POINT ( 'NONE', #30 ) ;
#246 = LINE ( 'NONE', #222, #64 ) ;
#247 = COORDINATED_UNIVERSAL_TIME_OFFSET ( 8, 0, .AHEAD. ) ;
#248 = ADVANCED_FACE ( 'NONE', ( #154 ), #37, .F. ) ;
#249 = VECTOR ( 'NONE', #289, 1000.000000000000000 ) ;
#250 = EDGE_CURVE ( 'NONE', #160, #44, #180, .T. ) ;
#251 = CARTESIAN_POINT ( 'NONE',  ( 12.69999999999999929, -12.69999999999999929, -12.69999999999999929 ) ) ;
#252 = APPROVAL_PERSON_ORGANIZATION ( #97, #38, #195 ) ;
#253 =( LENGTH_UNIT ( ) NAMED_UNIT ( * ) SI_UNIT ( .MILLI., .METRE. ) );
#254 = ORIENTED_EDGE ( 'NONE', *, *, #81, .T. ) ;
#255 = CARTESIAN_POINT ( 'NONE',  ( 12.69999999999999574, 12.69999999999999574, -12.69999999999999929 ) ) ;
#256 = VERTEX_POINT ( 'NONE', #2 ) ;
#257 = DIRECTION ( 'NONE',  ( -0.000000000000000000, 1.000000000000000000, -0.000000000000000000 ) ) ;
#258 = EDGE_LOOP ( 'NONE', ( #281, #174, #319, #136 ) ) ;
#259 = VECTOR ( 'NONE', #299, 1000.000000000000000 ) ;
#260 = DIRECTION ( 'NONE',  ( 0.000000000000000000, 0.000000000000000000, 1.000000000000000000 ) ) ;
#261 = DIRECTION ( 'NONE',  ( 0.000000000000000000, 0.000000000000000000, 1.000000000000000000 ) ) ;
#262 = FACE_OUTER_BOUND ( 'NONE', #258, .T. ) ;
#263 = DIRECTION ( 'NONE',  ( -2.220446049250312588E-16, 1.000000000000000000, 0.000000000000000000 ) ) ;
#264 = CC_DESIGN_PERSON_AND_ORGANIZATION_ASSIGNMENT ( #295, #140, ( #170 ) ) ;
#265 = CARTESIAN_POINT ( 'NONE',  ( -12.69999999999999574, -12.69999999999999396, 12.69999999999999929 ) ) ;
#266 = LINE ( 'NONE', #149, #310 ) ;
#267 = CARTESIAN_POINT ( 'NONE',  ( -12.69999999999999574, -12.69999999999999396, 12.69999999999999929 ) ) ;
#268 = CARTESIAN_POINT ( 'NONE',  ( 0.000000000000000000, 0.000000000000000000, 0.000000000000000000 ) ) ;
#269 = FACE_OUTER_BOUND ( 'NONE', #210, .T. ) ;
#270 = EDGE_CURVE ( 'NONE', #129, #171, #56, .T. ) ;
#271 = CALENDAR_DATE ( 2021, 5, 1 ) ;
#272 = VECTOR ( 'NONE', #137, 999.9999999999998863 ) ;
#273 = MANIFOLD_SOLID_BREP ( '¾µÏ', #78 ) ;
#274 = MANIFOLD_SOLID_BREP ( 'Í¹Ì¨-À', #151 ) ;
#275 = CARTESIAN_POINT ( 'NONE',  ( 12.69999999999999929, 12.69999999999999929, 12.69999999999999929 ) ) ;
#276 = DIRECTION ( 'NONE',  ( 1.000000000000000000, -2.220446049250312588E-16, 0.000000000000000000 ) ) ;
#277 = AXIS2_PLACEMENT_3D ( 'NONE', #219, #188, #71 ) ;
#278 = CARTESIAN_POINT ( 'NONE',  ( -12.69999999999999751, -12.69999999999999929, 12.69999999999999929 ) ) ;
#279 = PRODUCT_RELATED_PRODUCT_CATEGORY ( 'detail', '', ( #170 ) ) ;
#280 = CARTESIAN_POINT ( 'NONE',  ( 12.69999999999999929, 12.69999999999999929, 12.69999999999999929 ) ) ;
#281 = ORIENTED_EDGE ( 'NONE', *, *, #177, .F. ) ;
#282 = SECURITY_CLASSIFICATION ( '', '', #11 ) ;
#283 = LINE ( 'NONE', #119, #53 ) ;
#284 = EDGE_CURVE ( 'NONE', #256, #211, #33, .T. ) ;
#285 = CARTESIAN_POINT ( 'NONE',  ( 12.69999999999999574, 12.69999999999999574, -12.69999999999999929 ) ) ;
#286 = PERSON_AND_ORGANIZATION_ROLE ( 'design_supplier' ) ;
#287 = ORIENTED_EDGE ( 'NONE', *, *, #209, .T. ) ;
#288 = MECHANICAL_CONTEXT ( 'NONE', #305, 'mechanical' ) ;
#289 = DIRECTION ( 'NONE',  ( -0.000000000000000000, 1.000000000000000000, -0.000000000000000000 ) ) ;
#290 = ADVANCED_BREP_SHAPE_REPRESENTATION ( 'BK7-BPBSC-25.4-450-650', ( #274, #273, #7 ), #125 ) ;
#291 = ORIENTED_EDGE ( 'NONE', *, *, #242, .T. ) ;
#292 = COORDINATED_UNIVERSAL_TIME_OFFSET ( 8, 0, .AHEAD. ) ;
#293 = DIRECTION ( 'NONE',  ( 1.000000000000000000, 0.000000000000000000, 0.000000000000000000 ) ) ;
#294 = CARTESIAN_POINT ( 'NONE',  ( 0.000000000000000000, 0.000000000000000000, -12.69999999999999929 ) ) ;
#295 = PERSON_AND_ORGANIZATION ( #85, #182 ) ;
#296 = CC_DESIGN_APPROVAL ( #38, ( #153 ) ) ;
#297 = APPLICATION_CONTEXT ( 'configuration controlled 3d designs of mechanical parts and assemblies' ) ;
#298 = APPROVAL ( #320, 'UNSPECIFIED' ) ;
#299 = DIRECTION ( 'NONE',  ( 1.000000000000000000, 0.000000000000000000, 0.000000000000000000 ) ) ;
#300 = DIRECTION ( 'NONE',  ( -0.000000000000000000, -0.000000000000000000, -1.000000000000000000 ) ) ;
#301 = ORIENTED_EDGE ( 'NONE', *, *, #126, .T. ) ;
#302 = AXIS2_PLACEMENT_3D ( 'NONE', #95, #212, #293 ) ;
#303 = EDGE_CURVE ( 'NONE', #44, #194, #131, .T. ) ;
#304 = PLANE ( 'NONE',  #51 ) ;
#305 = APPLICATION_CONTEXT ( 'configuration controlled 3d designs of mechanical parts and assemblies' ) ;
#306 = COORDINATED_UNIVERSAL_TIME_OFFSET ( 8, 0, .AHEAD. ) ;
#307 = DIRECTION ( 'NONE',  ( 0.000000000000000000, 0.000000000000000000, -1.000000000000000000 ) ) ;
#308 = ORIENTED_EDGE ( 'NONE', *, *, #270, .T. ) ;
#309 = ADVANCED_FACE ( 'NONE', ( #59 ), #227, .T. ) ;
#310 = VECTOR ( 'NONE', #307, 1000.000000000000000 ) ;
#311 = PLANE ( 'NONE',  #302 ) ;
#312 = EDGE_LOOP ( 'NONE', ( #107, #4, #62 ) ) ;
#313 = PERSON_AND_ORGANIZATION ( #85, #182 ) ;
#314 = FACE_OUTER_BOUND ( 'NONE', #316, .T. ) ;
#315 = APPROVAL_STATUS ( 'not_yet_approved' ) ;
#316 = EDGE_LOOP ( 'NONE', ( #40, #139, #110 ) ) ;
#317 =( NAMED_UNIT ( * ) SI_UNIT ( $, .STERADIAN. ) SOLID_ANGLE_UNIT ( ) );
#318 = CARTESIAN_POINT ( 'NONE',  ( 12.69999999999999574, 12.69999999999999574, 12.69999999999999929 ) ) ;
#319 = ORIENTED_EDGE ( 'NONE', *, *, #29, .T. ) ;
#320 = APPROVAL_STATUS ( 'not_yet_approved' ) ;
#321 = VECTOR ( 'NONE', #109, 1000.000000000000000 ) ;
ENDSEC;
END-ISO-10303-21;
